Help keep this site up and running, please donate, Anything you can give will be much appreciated.
Tabs
[Tabs - Links - FAQ ]  

 


This tab is the author's own work and represents his/her interpretation of the song. You may only use this tab for private study, scholarship, or research.

Official JMTabs.Com Tab
Song Name: Lenny/Man On The Side - Discuss this tab
Album: Any Given Thursday
Tabbed by: JMFan70
Tuning: E-A-D-G-B-E
Comments: None
Playing style: Pick
Difficulty:  - Star Rating System Info
Don't know how to read tabs? Click here

>> Lyrics         >> Print Tab

----------------------------------------------------------------

Intro
Submitted by: JD

e--------------------------------------
b--------------------------------------
g---------9h11~------------------------
d-----9-9-9------9---------------------
a-----11-------11-11-9\7-9~-11\9p7-9~--
e-0~0~------------------9--9-----------

e--------------------------------------
b----------------------9h12-9----------
g-------9h11~----------------11-9h11-9-
d---9-9-9------9-----------------------
a---11-------11-11\9p7-----------------
e-0~-----------------------------------

e------b12-----------------------------
b------b12-9------9--------5~-----5----
g-h11-9-----11-9---11-9----6~-6--6-----
d---------------11-----11--7~7--6------
a------------------------0~----7----0--
e----------------------------------5---

e--------------------------------------
b-------------------------12-9--9------
g---------2p1-2p4-------------11-11p9--
d----------------0h2-0-----------------
a-0-0-----------------2p0--------------
e----5p4p0---------------0-------------

e--------------------------------------
b--------------------------------------
g-----------------11-14\9~-------------
d-11p9------------11------11-----------
a-----11p9------------------11-7-11p9--
e---------11p9~10~---------------------

e--------------------------------------
b------9--------12---10p9--------------
g-------11p9----11---11--11p9--9-------
d-----------11---------------11-11p9---
a-9\7h9-----------------------------12-
e-------------9~--10~------------------

e------------------------------9h12p9--
b-12-9--9----------------------10------
g-----11-11p9--------------------------
d------------11p9----------------------
a----------------11p9------------------
e--------------------12p9-7p9\5--------

e-------9------------------------------
b-12-10~-12---------------8h10p11p10p8-
g----------11p9--7~9h11p9~-------------
d----0~--------11----------------------
a--------------------------------------
e----------------8~--------------------

e--------------------------------------
b-h10p8--------------------------------
g------10p9----------------------------
d----------9h12------------------------
a--------------12-12p10-10\7-7----10---
e-----------------------------10p0-----

e--------------------------------------
b--------------------------------------
g--------------------------------------
d--------------------------------------
a-10-12/14-12p10----------12h14-12h14\-
e---------------12p10h12p0-------------

at "3p0" and so on that is when the
super-duper-fast-finger-part is played

e--------------------------------------
b-----------------2--------------------
g-----------------2-0---0--------------
d--------------------4-2-2-2p0---------
a-12p10-----------------------2p0------
e------10h12p0-3p0---------------4-3-2-

e--------3-----------------------------
b----2\0-3-2-2-------------2p0p2-------
g----2\1---2-2-------------2p0p2-------
d-------------2-2-2-0-2----------------
a--------------2-------4\2------0p2p0--
e-1-0---t-t-----------------0----------

e--------------------------------------
b---------------------------------2-0--
g--------2p0------0-0-0-----------2-0h1
d-----------2p0-2------2---------------
a-0------------4-4------4p0-0-0--------
e--3-3p2p--------------------3-3p0-----

e--------------------------------------
b--2p0p2---------------2p0-2p0---------
g--2p0p2---------------2p0-2p0-0-0-----
d-------0p2p0p2-2p0--------------------
a------------------0-0------------0-0--
e-t-----------------3-0--------------3\

e------3-------------------------------
b------3-------------------------------
g---------------------2-2-2-2-2-2-2--2-
d-------0h2-2-2-------2-2-2-2-2-2-2--2-
a--------------4-4-4-4---4---4---4--3--
e-2\1p0--------------------------------

e--------------------------------------
b--------------------------------------
g--2-2-2-2-2-2-2-2-2-2-2-2-2-2-2-------
d--2-2-2-2-2-2-2-2-2-2-2-2-2-2-2-------
a---3---3---3---2---2---2---2----------
e--------------------------------------

e--------------------------------9~7---
b-----------------------b5~---4--9~-9~~
g--2-2-2-2-2-2-2-2------b6~--6---8~----
d--2-2-2-2-2-2-2-2(x2)--b7~-7----6~----
a-1---1---1---1-------0~---------7~----
e--------------------0~---7~---0~------

e--------------------------12--9~7-----
b-p7-----5~----------------12--9~-9~~p7
g---9----6~--------11p9--------8~------
d--------7~------------9-------6~------
a----0~0~--------11-----11-----7~------
e----------0h7/12---------0~-0~--------

e--------------------------------------
b------5~--5---6---7-------------------
g-9----6~---6---7--8-8-----------------
d------7~-4---5---6-----------13p11p9--
a--0~0~---------------11---------------
e--------5---6---7------5~5~5~---------

e--------------------------------10----
b--------------------------------12h10-
g--------------------------------------
d-11-13h14p13p11\9---------------------
a-----------------11-------------------
e-------------------12-10p9-10-10------

e-----------9-----9-----9------7-5-3-3-
b------------9-----9-----9-----------x-
g-11p9-----9--9--9--9--9--9---7-5-4--4-
d-----12-0~----0~----0~--------------5-
a--------------------------------------
e--------------------------3-3---------

e-3-3----------------------------------
b-x-x----6~~~~~-------------5~---------
g-4-4----------7------------6~---------
d-5-5-----------10p8h10p8p7-7~---------
a--------------------------------------
e----5/6~------------------0--0h9/12/14

e---12~~~------------------------------
b---12~~~-----------------5~-----------
g-------------------------6~-----------
d-------------------------7~11p9-------
a-------------------------------9h11-11
e-0~-----5-7-9-12-14-12-5~-------------

e---0-0-------------------------12p9---
b---0-0-----------------------------12p
g------------------------11-11p9-------
d-----------------9--9p11--------------
a-p9---------------11------------------
e------12p9-9p12-0---------------------

e--------------------------------------
b-9------9p12-------------------9------
g--11p9------11p9--11~--9--------9-11p9
d------11--------11------11p9p11-------
a---------------------0----------------
e----------------------t---------------

e---------------------9----------------
b-----11/13------14----12-9---------14/
g------------------13------------------
d--------------------------11p9----9---
a-9p11-----11p9----------------9p11----
e--------------12----t-----------------

e---19\17---19\17----------------------
b-17------11-----14-12~~~9------9------
g---------11-------------11-9h11-11-11h
d--------0-----------------------------
a--------------------------------------
e--------------------------------------

e------12~-----------------------------
b---12~--------------------------------
g-9------12-12p9--------------12-------
d---------------12p9------------12p9---
a-------------------12-12p10--------11p
e--0------------------------13---------

e--------------10----------------------
b---8h10-10p11---12p10-10--------------
g-------------9-------9--12--12---11h13
d--------------------------12----------
a-12-----------------------------------
e------------------------------0-t-----

e--------------------------------------
b--------------------------------------
g--------------------------9h11-11p9---
d-13p11-----------------------------11-
a------14-14p11------------------------
e--------------12h13-11-11-------------

e--------------------------------------
b-10~----------------------8~~5~5-5-5-5
g-9~-(x4)------9-7h9-9p7---9~~4~4-4-4-4
d-------------9---------9--7~~6~7-0-0-4
a-----------------------------------7-4
e-------0h8\7~-----------7~---0~-------

e--------------------------------------
b----5-5-4~----5-4--5-5-5-5-5-5--------
g----6-4-4~-4--6-4--6-4-4-4-4-4--------
d----4-4-4~--4-6-4--4-4-7-6-4-4--------
a-4-4--4-6~----4-4--4-4-4-4-4-7--------
e--------7~7---------------------------



Verse 1 & 2

"Six numbers..."
"One of the many..."
e----------------------------------|
b-5~--5---5------5---5---5----5----|
g-4~--4---4------4---4---4h6--4----|
d-6~--4h6-4------7---7---7----7----|
a------------7p4(4)--4--------4----|
e(0)-------------------------------|
Emphasise lower notes

e--------------------------------------|
b-4-----4h5-(4)-----5---5-----5---5----|
g-4-----4---(4)-----4h6-4-----4---4----|
d-4-----4h6-(4)-----7---7--7--4h6-4----|
a----------------0-------------------7-|
e-7--7---------------------------------|



PreChorus

"Excuse me Mrs. Busybody..."
e--------------------------------------|
b-2---9---7-------------4--5--2--------|
g-2---9---8---1---2--4--4--4--2--------|
d-2---7---7---2---2--4--2--2--2--------|
a-x---x---x---2---x--x--------x--------|
e-2---7---7---0---2--4--------2--------|

e------------------------------|
b-9-9-9---2--4-5--4-5----------|
g-9-9-9---3--4-4--4-4----------|
d-7-7-9---2--2-2--4-4----------|
a-x-x-x---x--0-0--2-2----------|
e-7/8/9---2--------------------|



Chorus

"I am the man..."
e----------0------|
b----2--2--0------| 
g-1--2--2--4------| 
d-2--2--2--4------| (x2) 
a-2--x--0--2------|
e-0--2------------|
           ^this part is fingerpicked


e-------------------------|
b-----2--4--2--3--2-------| 
g-1---2--4--2--2--2--1----|
d-2---2--4--2--0--2--2----|
a-2---x--x--0-----4--2----|
e-0---2--4-----------0----|



Pre Chorus (Second Time)

"Excuse me Mrs. Busybody..."
e-------------|
b-2--9-7------|
g-2--9-8------|
d-2--7-7------| (x2) 
a-x--x-x------|
e-2-(7)7------|

e-----------------------------|
b-2--9-9-9--2--4-5--4-5-------|
g-2--9-9-9--3--4-4--4-4-------|
d-2--7-7-9--2--2-2--4-4-------|
a-x--x-x-x--x----0--2-2-------|
e-2--7/8/9--2-----------------|
Play chorus again but play (xx032x) more then once



Bridge

"I fell in love..."
e--------------------7------7----5---|
b-3---/5-----2---4---5-----5-----5---|
g-5---/7--1--2---4---5----5------5---|
d-5---/7--2--2---4-------------------|
a-3---/5--2--x---x-------------------|
e---------0--2---4-------------------|

"Taking my own..."
e----------------------------------|
b--3---5-----------3--3------------|
g--5---7----4---4--2--2--1---------|
d--5---7----2---2--0--0--2---------|
a--3---5----0---x--x--x--2---------|
e---------------4--3--2--0---------|



Pre Chorus (Third Time)

"Excuse me Mrs. Busybody..."
e------------------7-----|
b-2---9\----2---9--x-----|
g-2---9\----2---9--8-----|
d-2---7\----2---7--7-----|
a-x---x\----x---x--x-----|
e-2---7\----2---7--7-----|

e----------------------3-------|
b-2--9-9-9--2--4-5--3--3-------|
g-2--9-9-9--3--4-4--5--5-------|
d-2--7-7-9--2--2-2--5--0-------|
a-x--x-x-x--x-------3----------|
e-2--7/8/9--2------------------|


 
All photographs are copyright © John Mayer. All other images copyright © jmtabs.com (2003-2006)