Help keep this site up and running, please donate, Anything you can give will be much appreciated.
Tabs
[Tabs - Links - FAQ ]  

 


This tab is the author's own work and represents his/her interpretation of the song. You may only use this tab for private study, scholarship, or research.

Official JMTabs.Com Tab
Song Name: St. Patricks Day - Discuss this tab
Album: Room For Squares
Tabbed by: richie@jmtabs.com
Tuning: E-A-D-G-B-E
Comments: Tabbed from Late Night with Conan O
Playing style: Pick
Difficulty:  - Star Rating System Info
Don't know how to read tabs? Click here

>> Lyrics         >> Print Tab

----------------------------------------------------------------

Intro
He just strums this chord
Notice the rhythym he uses. It's used throughout
the entire song consistently.

e--0--|
b--7--|
g--8--|
d--6--|
a--x--|
e--0--|
Click here to listen to the audio



Verse

"Here comes the cold..." / "And when it snows again..."
e--------------------7---7---5---5--|
b--7---7---7---5---5-5---5---5---5--|
g--8---8---9---6---6-6---5---4---4--| x2
d--6---6---9---6---6-6---5---4---4--|
a--x---x---x---x---x-x---x---x---x--|
e--0---8---9---6---5-5---5---4---3--|
Click here to listen to the audio



Pre Chorus

"Who knows..."
e-------------------|
b--3---5---2---2-0--|
g--4---6---2---2-2--| x2
d--2---6---0---0-0--|
a--x---x---x---x-x--|
e--4---5---2---3-3--|
Click here to listen to the audio



Chorus

"No way November will see our goodbyes..."
e---0--x----x----x----x----x----x--|
b--10--9---12---10----9----9----9--|
g--11-11---11---11---10---11----8--|
d---9--9----9----9----9----9---10--|
a---x--x----x----x----x----x----8--|
e---0--0---11---10----9---11----x--|

"No one wants to be alone..."
e---9----x---7---x---0--|
b--10----9---8---7---0--|
g---9----9---7---7---2--|
d--11----9---9---7---2--|
a---9---11---7---9---0--|
e---x-------------------|

"And we'll both be safe..."
e---9----x---0---0---0--|
b--10----9---0---0---7--|
g---9----9---6---8---8--|
d--11----9---7---7---6--|
a---9---11---x---x---x--|
e---x--------5---7---0--|
Click here to listen to the audio



Bridge

            "We should take a ride..."
e--0-0-x--  --7---5---x---x----7---5---x--|
b--7-0-5--  --5---5---3---3----5---5---3--|
g--8-2-4--  --5---5---4---4----5---5---4--|
d--6-2-4--  --5---4---4---2----5---4---4--|
a--x-x-x--  --x---5---x---x----x---5---x--|
e--0-2-4--  --5-------3---4----5-------3--|

"Everybody, it seems to me just wants..."
e--x-x-x---5---x----x----x--|
b--3-2-1---3---3----8----8--|
g--4-3-2---0---6----7---11--|
d--4-3-2---4---5---10---10--|
a--x-x-x---x---x----x----x--|
e--3-2-1---0---5----8---10--|
Click here to listen to the audio



Ending

"And if our always is all that we gave..."
e---9----x---0---0--|
b--10----9---0---0--|
g---9----9---6---8--| x3
d--11----9---7---7--|
a---9---11---x---x--|
e------------5---7--|

e---0---0---0--    --0--|
b---7---0---0--    --7--|
g---8---6---8-- x3 --8--|
d---6---7---7--    --6--|
a---x---x---x--    --x--|
e---0---5---7--    --0--|
Click here to listen to the audio


 
All photographs are copyright © John Mayer. All other images copyright © jmtabs.com (2003-2006)