Help keep this site up and running, please donate, Anything you can give will be much appreciated.
Tabs
[Tabs - Links - FAQ ]  

 


This tab is the author's own work and represents his/her interpretation of the song. You may only use this tab for private study, scholarship, or research.

Official JMTabs.Com Tab
Song Name: Back To You - Discuss this tab
Album: Room For Squares
Tabbed by: richie@jmtabs.com
Tuning: E-A-D-G-B-E
Comments: No Comment
Playing style: Pick
Difficulty:  - Star Rating System Info
Don't know how to read tabs? Click here

>> Lyrics         >> Print Tab

----------------------------------------------------------------

Intro
The bass notes are played by the bass player
The electric guitar plays the same thing over and over

Lead Guitar:
e-----------7------------7--------
b------10-9---------10-9---9-7----
g----9------------9------------9-- x4
d--7------------7-----------------
a---------------------------------
e---------------------------------
Click here to watch the video



Rhythym Guitar:
e--0---4---0---0---4--
b--0---0---0---0---0--
g--2---2---2---1---2-- x4
d--2---2---0---4---2--
a--0---x---2---2---x--
e------2-------0---2--



Verse

"Back To You..." / "Over you..."
e--0---0---0---0---0--
b--0---0---0---0---0--
g--2---2---2---1---2--
d--2---2---0---4---2--
a--0---x---2---2---x--
e------2-------0---2--
Click here to watch the video



Chorus

"Yeah, I'm so good at forgetting..."
e--0---0---0--     --0---0---0---0---0---0--
b--0---0---0--     --0---0---0---0---0---0--
g--9---9---9-- x2  --9---9---9---9---4---9--
d--9---7---7--     --9---7---7---7---4---9--
a--7---4---5--     --7---9---4---5---2---7--
e-------------     -------------------------
Click here to watch the video



Bridge

e--0---0---0---3--
b--0---1---1---3--
g--9---0---0---0--
d--9---3---2---0--
a--7---3---3---x--
e------1-------3--
Click here to watch the video


"Leave the light..."
e--0---0---0--
b--5---5---0--
g--4---4---7-- x3
d--4---4---7--
a--x---x---5--
e--4---5---x--

"for me too..."
e--5---7---x------
b--5---7---3---5--
g--7---9---4---6--
d--7---9---2---4--
a--x---x---3---5--
e--7-- 9----------
Click here to watch the video



Solo
The intro rhythym guitar plays along
with this solo.
He may be using a slide for this solo.

e---------------------------------------
b--12/14v-14v-14v---12/14\12--12-10-10--
g---------------------------------------
d---------------------------------------
a---------------------------------------
e---------------------------------------

e-----------------------------------------------
b--10\7-12/14-14\9v--14\9v--7-14\7p5--14b15r14--
g-----------------------------------------------
d-----------------------------------------------
a-----------------------------------------------
e-----------------------------------------------
Click here to watch the video



Ending riff

e---------------------7--
b--7/9---7---7/9----7----
g------9---------9------- repeat as necessary
d------------------------
a------------------------
e------------------------
Click here to watch the video


 
All photographs are copyright © John Mayer. All other images copyright © jmtabs.com (2003-2006)