Help keep this site up and running, please donate, Anything you can give will be much appreciated.
Tabs
[Tabs - Links - FAQ ]  

 


This tab is the author's own work and represents his/her interpretation of the song. You may only use this tab for private study, scholarship, or research.

Official JMTabs.Com Tab
Song Name: 3x5 - Discuss this tab
Album: Room For Squares
Tabbed by: richie@jmtabs.com
Tuning: E-A-D-G-B-E (Capo 8)
Comments: Tabbed from AGT concert.
Playing style: Pick
Difficulty:  - Star Rating System Info
Don't know how to read tabs? Click here

>> Lyrics         >> Print Tab

----------------------------------------------------------------

Intro
Pick the chords

e--0---0---0---0--
b--3---5---8---8--
g--0---0---0---0--
d--2---4---7---7--
a--2---5---7---6--
e--0---0---0---0--
Click here to watch the video
Click here to listen to the audio



Verse

"I'm writing you to..."
e--0---0---0---0---0--    --0-0-0--
b--3---3---3---3---0--    --3-3-3--
g--0---0---0---0---2-- x2 --0-2-0--
d--2---0---0---2---1--    --2-0-0--
a--2---x---x---3---2--    --2-x-x--
e--0---2---3-------0--    --0-2-3--
Click here to watch the video
Click here to listen to the audio



Pre Chorus
Quick change of chords, have fun :)

"Didn't have a camera by..."
e--0---0---0---0---0--    -0-
b--3---3---3---3---1--    -3-
g--0---0---2---0---0-- x3 -0- x 1
d--2---0---0---2---3--    -2-
a--3---2---0---3---x--    -2-
e--x---3---2-------1--    -0-


"lose my way with words" - goes back to verse
e--0---0---0--
b--3---3---3--
g--2---0---2--
d--0---2---4--
a-------------
e-------------
Click here to watch the video
Click here to listen to the audio


"lose my way, but let me say" - goes to chorus
e--0--0--
b--1--1--
g--0--2--
d--3--0--
a-----x--
e--1--2--



Chorus
This is played 4 times, 8 if he repeats the chorus

"You should have seen that sunrise..."
e--3---0---0---0--
b--3---5---1---3--
g--0---5---0---0-- x4 (x8)
d--0---3---2---1--
a--x---5---0---0--
e--3---x---0---0--
Click here to watch the video
Click here to listen to the audio



Interlude
Played at 2:34 on CD

Part A

e--0---0---0---0---------
b--0---0---0---0---------
g--0---0---0---0--------- 
d--4---2---4---2--------- 8x
a--2---0---2---0---------
e--0---0---0---0---------


Part B

e--0---0---0---0---------
b--0---0---0---0---------
g--0---0---0---0--------- 
d--4---2---4---2--------- 4x
a--2---2---2---2---------
e--0---0---0---0---------

e--0---0---0---0---------
b--3---3---3---3---------
g--0---0---0---0--------- 
d--2---0---2---0--------- 2x
a--3---3---3---3---------
e--0---0---0---0---------

e--0---0---0---0---------
b--0---0---0---0---------
g--2---0---2---0--------- 
d--1---1---1---1--------- 2x
a--2---2---2---2---------
e--0---0---0---0---------


Part C

e--0---3---0---3---0---3---0---3--------
b--3---3---3---3---3---3---3---3--------
g--0---0---0---0---0---0---0---0-------- 
d--2---2---2---2---2---2---2---2--------
a--2---2---2---2---2---2---2---2--------
e--0---0---0---0---0---0---0---0--------

e--0---3---0---3---------
b--3---3---3---3---------
g--0---0---0---0---------
d--2---2---2---2---------
a--3---3---3---3---------
e--0---0---0---0---------

e--0---3---0---3---------
b--0---0---0---0---------
g--2---2---2---2--------- 
d--1---1---1---1---------
a--2---2---2---2---------
e--0---0---0---0---------


Part D

e--0---0---0---0---0------
b--3---3---3---3---0------
g--0---0---0---0---2------
d--2---2---2---2---1------
a--2---x---x---3---2------
e--0---2---3---0---0------
Click here to listen to the audio



Ending
Finger picking

e-------------------------------------5--
b--1-----1------0-----0------0--3--2--2--
g----0-----0------0-----0-------0-----0-- x 3
d------2-----2------1-----1-----0-----2--
a--0------------0---------------0--0-----
e----------------------------3-----------

e--------------------------0-
b--1-----0-----------------0-
g-----0-----0--0-----2-----0-
d-----------------2-----1--4-
a--0-----2-----3-----2-----2-
e--------------------------0-
Click here to watch the video
Click here to listen to the audio


 
All photographs are copyright © John Mayer. All other images copyright © jmtabs.com (2003-2006)