Help keep this site up and running, please donate, Anything you can give will be much appreciated.
Tabs
[Tabs - Links - FAQ ]  

 


This tab is the author's own work and represents his/her interpretation of the song. You may only use this tab for private study, scholarship, or research.

Official JMTabs.Com Tab
Song Name: Your Body Is A Wonderland - Discuss this tab
Album: Room For Squares
Tabbed by: richie@jmtabs.com
Tuning: D-A-D-G-B-E (Drop D)
Comments: Tabbed from several videos from score1more4me.com.
Playing style: Hand
Difficulty:  - Star Rating System Info
Don't know how to read tabs? Click here

>> Lyrics         >> Print Tab

----------------------------------------------------------------

Intro/Verse
The intro and verse are the same in the album.
Depending on which version you hear, John may
add alterations to this riff in the intro.

"We've got the afternoon..."
e--------------------------------------|
b--------------------------------------|
g---10-10-----10-10----10-10-----10-10-|
d---10-10-----10-10----10-10-----10-10-|
a-8-----8------------------------------|
d----------10----10--8-----8--10----10-|
Click here to listen to the audio


Pre-Chorus

"Cuz if you want love..."
e--------------------------------------|
b---10-8-----8--10-----10-8------8--10-|
g---10-10----10-10-----10-10-----10-10-|
d---8--8-----8--8------8--8------8--8--|
a--------------------------------------|
d-8--------8--------10--------10-------|

"This is bound to by a while"
e----------------------|
b---3----5----6-----8--|
g---3----5----7-----9--|
d---5----7----8-----10-|
a----------------------|
d-5----7----8----10----|
Click here to listen to the audio



Chorus
John holds 3 notes with his pinky. Not an easy task :-D

"Your body is a wonderland..."
e--------------------------------------|
b--------------------------------------|
g---10-10-----10-10----10-10-----10-10-|
d---10-10-----10-10----10-10-----10-10-|
a-8-----8------------------------------|
d----------10----10--8-----8--10----10-|
Click here to listen to the audio



Riff before solo
Play these 2 chords, stay on the 2nd chord and pick the rest

"Damn baby..."
e--------0--------0---------0-|
b-6------8--------------------|
g-7------9--------------------|
d-10-----12--12----12-12------|
a-----0--10-----10-------10---|
d-0---------------------------|
Click here to listen to the audio



Solo (Album Solo)
Different versions of this song,
John plays slightly different solos,
and some completely different


e-12-------------------------|
b-------13-/10-8-6-6/8-10/8--|
g-12-------------------------|
d-------14-/10-9-7-7/9-10/9--|
a----------------------------|
d----------------------------|

e-12-------------10-----|
b-------13-10-------12--|
g-12-------------10-----|
d-------14-10-------12--|
a-----------------------|
d-----------------------|

e-12-------------------------|
b------13-/10-8-6-6/8-10/8---|
g-12-------------------------|
d------14-/10-9-7-7/9-10/9---|
a----------------------------|
d----------------------------|

e-12-------------15-12--|
b-------13-10-----------|
g-12-------------16-12--|
d-------14-10-----------|
a-----------------------|
d-----------------------|



After the solo, he'll play this multiple times.
Play Part A followed by Part B, then repeat as necessary.

Part A:      Part B:
e---------    -------------|
b---------    -------------|
g-----10-- x3 -----10-10---| x1
d-0-0-10--    -0 0-10-10---|
a---------    -------------|
d---------    -------------|
Click here to listen to the audio


Ending

"Da da dah..."
e--------------------------------------|
b--------------------------------------|
g---10-10-----10-10----10-10-----10-10-|
d---10-10-----10-10----10-10-----10-10-|
a-8-----8------------------------------|
d----------10----10--8-----8--10----10-|
Click here to listen to the audio


 
All photographs are copyright © John Mayer. All other images copyright © jmtabs.com (2003-2006)