Help keep this site up and running, please donate, Anything you can give will be much appreciated.
Tabs
[Tabs - Links - FAQ ]  

 


This tab is the author's own work and represents his/her interpretation of the song. You may only use this tab for private study, scholarship, or research.

Official JMTabs.Com Tab
Song Name: Neon - Discuss this tab
Album: Inside Wants Out
Tabbed by: richie@jmtabs.com
Tuning: C-A-D-G-B-E (Drop C)
Comments: Tabbed from Carson Daily show and Album
Playing style: Hand
Difficulty:  - Star Rating System Info
Don't know how to read tabs? Click here

>> Lyrics         >> Print Tab

----------------------------------------------------------------

Intro

e---------------------------------------------------
b---8----------4-------------4----------9---------8-
g-----10-----3-------------3---3------8---------7---
d----------3-----5-6-----6----------8--------10-----
a---------------------------------------------------
c-0------3-----------5------------8-------10--------
Click here to watch the video | (Watch Slow Version)
Click here to listen to the audio



Pre Chorus
Play this and go back to verse

"She comes and goes..."
e-x--x--x-
b-6--6--4-
g-5--5--3- --> First time, go back to verse
d-8--8--6-
a-x--x--x-
c-8--7--6-


"She comes and goes..."
e-------------------------
b--6--6--4--6--6--4--6--4-
g- 5--5--3--5--5--3--5--5-
d--8--8--6--8--8--6--8--6-
a--x--x--x--x--x--x--x----
c--8--7--6--8--7--5--7----
Click here to watch the video
Click here to listen to the audio



Chorus

"Neon..."
e---x---x---3------
b---4---6---4------
g---3---5---3------ x 2
d---6---8---5(3h5)-
a---x---x---3------
c---5---7---x------


"Who knows how long...  she can go before she burns away"
e---x---x---3----x---x-----
b---4---6---4---11---9--4--
g---3---5---3---10---8--5--
d---6---8---5---10---8--6--
a---x---x---3----x---x-----
c---5---7---x---10---8-----
Click here to watch the video
Click here to listen to the audio



Bridge

e-----------------------------
b---4--6--7---9---4--6--7---9-
g---3--5--6---8---3--5--6---8-
d---6--8--9--11---6--8--9--11-
a-----------------------------
c---5--7--8--10---5--7--8--10-

e----------------------------------------
b--------4--------6--------7----------9--
g------3--------5--------6----------8----
d----6--------8--------9---------11------
a----------------------------------------
c--5--------7--------8--------10---------
Click here to watch the video
Click here to listen to the audio



Solo
Submitted by alex radovanovich

e---------------------------------------|
b--------4--------6--------7----------9-|
g------3--------5--------6----------8---|
d----6--------8--------9---------11-----|
a---------------------------------------|
c--5--------7--------8--------10--------|

e---------------------------------|
b---------------------------------|
g-11-11\-------8------8--------7--|
d-11-11\-------8-----8-------10---|
a---------------------------------|
c----10\-----0----0h7----0h10-----|


 
All photographs are copyright © John Mayer. All other images copyright © jmtabs.com (2003-2006)