Help keep this site up and running, please donate, Anything you can give will be much appreciated.
Tabs
[Tabs - Links - FAQ ]  

 


This tab is the author's own work and represents his/her interpretation of the song. You may only use this tab for private study, scholarship, or research.

Official JMTabs.Com Tab
Song Name: In Your Atmosphere - Discuss this tab
Album: Unreleased
Tabbed by: richie@jmtabs.com
Tuning: E-B-E-F#-B-E
Comments: New tab coming soon. Here
Playing style: Pick
Difficulty:  - Star Rating System Info
Don't know how to read tabs? Click here

>> Lyrics         >> Print Tab

----------------------------------------------------------------

Fill A
This is the best way I can explain playing this.
These are only the chord changes, so some notes
are hit more times than others.


e--------5-5-5-5-5-5-5-4---|
b---7--0-------------------|
f#--5--5-5-5-5-5-5-5-5-5---|
e---0--5---------------0---|
b---x--x---------------x---|
e---0--5---------------0-0-|


e-----------------------|
b---0-0-0-0-0-0-0-0-----|
f#--5-7-7-7-7-7-7-7-5---|
e---5-7-7-7-7-7-7-7-7---|
b---x---------------x---|
e---5---------------0-0-|



Fill B
This fill played throughout the verses, etc.

e------------|
b---7---7/9--|
f#--5---5/7--|
e---0---5/7--|
b---x---x----|
e---0---5----|



Intro
He picks around with this, so he may hit
some of the notes more times than shown

e-----9-------------------|
b---7----------------0----|
f#--5------9----7----3-5--|
e---0---11----7----5------|
b---0---(0)---------------|
e-------------------------|

e-----------------0--|
b--0h7-7------0---0--|
f#--5-----9---7---5--|
e---7----11--/7---7--|
b---0-----0---0---x--|
e-----------------5--|


On occasion, he slides the chords
This is done throughout the song
e------------------|
b--7--7-7/9--7--7--|
f#-5--5-5/7--5--5--|
e--0--5--0---0--5--|
b--x--x--0---x--x--|
e--0--5------0--5--|



Verse
As shown in intro, he will slide the chord on occasion

"I don't think I'm gonna go to LA anymore..."
"I dont think I'm gonna go there anymore..."
"I dont think I'm gonna go there anymore..."
e----------|
b---7---7--|
f#--5---5--| x5  
e---0---0--|
b---x---x--|
e---0---5--|


"And not race to your door..."
"of your bedroom neighborhood..."
"I love you, take a ride..."
e------------------|
b---0---0---0---7--|     1st time thru        2nd time thru
f#--7---5---0---5--| --> (Fill A -> Verse) -> Chorus
e---6---4---0---x--|
b---7---5---2---7--|
e---0---0---0---0--|



Chorus

"I'm gonna steer clear..."
e--------------|
b---0---0---0--|
f#--0--10---9--| x3
e---0---7---7--|
b---2---x---x--|
e---0---7---7--|


"Cus I'd die if I saw you..."
e--------------|
b---0---0---0--|
f#--0--10---9--| x3
e---0---7---7--|
b---2---x---x--|
e---0---7---7--|



             "So I don't think I'm gonna go to LA anymore"
e---------    --------|
b---0--0--    -0---0--|
f#--5--7-- x2 -5---9--| --> Fill A
e---4--5--    -4---7--|
b---x--x--    -x---0--|
e---0--5--    -5---7--|



"And it sucks that..."
e----------
b---7---7--
f#--5---5-- x5  --> Fill B --> Verse
e---0---5--
b---x---x--
e---0---5--



Ending

"I think I'm gonna stay..."
e----------|
b---0---0--|
f#--5---7--| xRepeat till end of song
e---4---5--|
b---x---x--|
e---0---5--|


 
All photographs are copyright © John Mayer. All other images copyright © jmtabs.com (2003-2006)