Help keep this site up and running, please donate, Anything you can give will be much appreciated.
Tabs
[Tabs - Links - FAQ ]  

 


This tab is the author's own work and represents his/her interpretation of the song. You may only use this tab for private study, scholarship, or research.

Song Name: Comfortable - Discuss this tab
Album: Inside Wants Out
Tabbed by: Catherine Gagn
Tuning: E-A-D-G-B-E (Capo 3)
Comments: No Comment
Playing style: Hand
Difficulty:  - Star Rating System Info
Don't know how to read tabs? Click here

>> Lyrics         >> Print Tab

----------------------------------------------------------------

Intro

e--0h2-----2p0----0-2-3-2------2-2-2p0-----0-2-3- 
b--3-----------3--3------------3-3-3---3---1-----
g--2-----2--------0----------0-------------0-----
d--0---0----------x------------------------2-----
a-----------------1--------2---------------0-----
e------------------------------------------------

e--2p0-----------------------------------------
b--1---3-------0------2------3------0----2---3- 
g--2-----------0------2------4-----0-----2---4-
d--0-------0---0---0--2---2--4----0---0--2---4- 
a----------------------------------------------
e--------3---3---3------3--------0-------------


Verse
Finger pick the chords

e--2--0--2--0--2--------------------------
b--3--3--3--1--1-------0------2------3----
g--2--0--0--0--2-------0------2------4----
d--0--2--0--2--0---0---0---0--2---2--4--0-
a-----1--2--0-----------------------------
e----------------3---3---3------3------0--

e-----------------
b---0-----2-----3-
g---0-----2-----4-
d---0---0-2---2-4-
a-----------------
e-0---0-----0-----


*** Very often, he only plays: 

e----------------- 
b-------0---2---3- 
g-------0---2---4- 
d---0---0---2---4- 
a----------------- 
e-0---0----------- 

On the album, at 1:00 min 

e----2p0---------2p0--------2p0---------2----- 
b----3---------------3------3-----------1----- 
g--------2--------------0-------0-----2---2--- 
d--0---------2------------------------------0- 
a----------1---1-------2--2-------3-3--------- 
e--------------------------------------------- 


Part 2 

"I can't remember..." / "Life of the party..."
e--------3----------0--------------------------2-
b--------3-----2------2------------------3--5----
g--------0-------0------0---(x3)-------4---------
d----0-----0-------2-----------------4-----------
a------2-----2-0---------------------------------
e--3-------------------------------4-------------


Chorus
Finger pick these chords

"Our love was comfortable..."
e--2--0--2---2--0--2---3---0---0-- 
b--3--3--3---3--3--3---3---3---2-- 
g--2--2--2---2--2--2---0---2---2-- 
d--0--0--0---0--0--0---0---2---2-- 
a------------2--2--2---x---0---0-- 
e----------------------3---------- 

* John probably used his thumb on the a string. 


Part 3 

"or so they say.." / "I'm not impressed.." 

e--1---0---0---0---3---0-- 
b--1---1---3---0---3---2-- 
g--0---0---2---1---0---3-- 
d--3---2---0---0---0---2-- 
a----------2---2---x---x-- 
e----------x---0---3---3-- 


Part 4 

Interlude 

e--3--2--0----------3------2-------
b--------------------------------5-
g----------------------------------
d----------------------------------
a-----------------------0--1--3--5-
e-------------0--2--3--------------

* (x5xx5x) can be replaced by (xx0xx0). 


Part 5 

" I loved you... grey sweatpants..." 
e----------------------------------------------------
b--------0------2------3------0--0-----2-----3---3---
g--------0------2------4---------0-----2-----4---4---
d----0---0---0--2---2--4----0----0--0--2--2--4---4---
a----------------------------------------------------
e--3---3---3------3-------0--------0-----0-----0-----

e---------------------------------------------------0-- 
b---------0-------2-------3----------2-------3------2-- 
g---------0-------2-------4----------2-------4------2-- 
d----0----0----0--2----2--4----0h2---2----2--4----2---- 
a----------------------------0-----0----0-------0------ 
e--3---3-----3-------3--------------------------------- 


Part 6 

Last chorus played right before "I want you back"

e--2---0---0---0---0- 
b--3---3---3---3---2- 
g--2---2---0---2---2- 
d--0---0---2---2---2- 
a------2---2---0---0- 
e------x---0--------- 


Part 7 

" I want you back..."
e--0---0---3---0---------------0--- 
b--3---0---3---2---3h2---------2h3- 
g--2---1---0---2-------2-------2--- 
d--0---0---0---2---------2-----2--- 
a--2---2---x---0-----------0---0--- 
e--x---0---3---x------------------- 


Ending
Finger pick these chords

e--2p0--0--2p0--0-----2--
b--3----3--3----3--2--3--
g--2----0--2----0--2--2--
d--0----2--0----2--2--0--
a-------1-------1--------
e------------------------


 
All photographs are copyright © John Mayer. All other images copyright © jmtabs.com (2003-2006)